ISO-10303-21;
HEADER;
FILE_DESCRIPTION (( 'STEP AP214' ),
    '1' );
FILE_NAME ('am-0152 Toughbox Internal Hex Shaft.STEP',
    '2020-05-01T15:59:29',
    ( '' ),
    ( '' ),
    'SwSTEP 2.0',
    'SolidWorks 2019',
    '' );
FILE_SCHEMA (( 'AUTOMOTIVE_DESIGN' ));
ENDSEC;

DATA;
#1 = EDGE_LOOP ( 'NONE', ( #159 ) ) ;
#2 = CARTESIAN_POINT ( 'NONE',  ( -1.436003687527459549, -1.004999999999999893, -0.8436463301718686303 ) ) ;
#3 = EDGE_LOOP ( 'NONE', ( #317, #65, #336, #248 ) ) ;
#4 = DIRECTION ( 'NONE',  ( -0.5000000000000000000, 0.0000000000000000000, -0.8660254037844385966 ) ) ;
#5 = ORIENTED_EDGE ( 'NONE', *, *, #132, .T. ) ;
#6 = FACE_OUTER_BOUND ( 'NONE', #212, .T. ) ;
#7 = EDGE_LOOP ( 'NONE', ( #89, #371, #375, #124, #312, #36 ) ) ;
#8 = CARTESIAN_POINT ( 'NONE',  ( -1.652510038473569365, -1.004999999999999893, -0.4686463301718689078 ) ) ;
#9 = DIRECTION ( 'NONE',  ( 0.0000000000000000000, 0.0000000000000000000, 1.000000000000000000 ) ) ;
#10 = DIRECTION ( 'NONE',  ( 0.0000000000000000000, 0.0000000000000000000, -1.000000000000000000 ) ) ;
#11 = EDGE_CURVE ( 'NONE', #34, #58, #121, .T. ) ;
#12 = ADVANCED_FACE ( 'NONE', ( #153, #23 ), #304, .T. ) ;
#13 = CARTESIAN_POINT ( 'NONE',  ( -1.327750512054404863, -1.004999999999999893, -0.6561463301718688523 ) ) ;
#14 = APPLICATION_CONTEXT ( 'automotive_design' ) ;
#15 = LINE ( 'NONE', #295, #390 ) ;
#16 = DIRECTION ( 'NONE',  ( 0.8660254037844381525, 0.0000000000000000000, 0.5000000000000008882 ) ) ;
#17 = SHAPE_DEFINITION_REPRESENTATION ( #352, #209 ) ;
#18 = VECTOR ( 'NONE', #105, 39.37007874015748143 ) ;
#19 = DIRECTION ( 'NONE',  ( 1.000000000000000000, 0.0000000000000000000, 0.0000000000000000000 ) ) ;
#20 = UNCERTAINTY_MEASURE_WITH_UNIT (LENGTH_MEASURE( 1.000000000000000082E-05 ), #241, 'distance_accuracy_value', 'NONE');
#21 = FACE_OUTER_BOUND ( 'NONE', #362, .T. ) ;
#22 = SURFACE_SIDE_STYLE ('',( #152 ) ) ;
#23 = FACE_OUTER_BOUND ( 'NONE', #342, .T. ) ;
#24 = UNCERTAINTY_MEASURE_WITH_UNIT (LENGTH_MEASURE( 1.000000000000000082E-05 ), #119, 'distance_accuracy_value', 'NONE');
#25 = EDGE_LOOP ( 'NONE', ( #308 ) ) ;
#26 = VERTEX_POINT ( 'NONE', #307 ) ;
#27 = VERTEX_POINT ( 'NONE', #210 ) ;
#28 = CARTESIAN_POINT ( 'NONE',  ( -1.652510038473569365, -0.9974999999999999423, -0.4686463301718689078 ) ) ;
#29 = ORIENTED_EDGE ( 'NONE', *, *, #257, .F. ) ;
#30 = FACE_OUTER_BOUND ( 'NONE', #186, .T. ) ;
#31 = ORIENTED_EDGE ( 'NONE', *, *, #230, .T. ) ;
#32 = CARTESIAN_POINT ( 'NONE',  ( -1.436003687527459771, -0.9974999999999999423, -0.4686463301718689078 ) ) ;
#33 = APPLICATION_CONTEXT ( 'automotive_design' ) ;
#34 = VERTEX_POINT ( 'NONE', #82 ) ;
#35 = DIRECTION ( 'NONE',  ( -0.8660254037844387076, 0.0000000000000000000, 0.4999999999999998890 ) ) ;
#36 = ORIENTED_EDGE ( 'NONE', *, *, #162, .T. ) ;
#37 = DIRECTION ( 'NONE',  ( 0.0000000000000000000, -1.000000000000000000, 0.0000000000000000000 ) ) ;
#38 = AXIS2_PLACEMENT_3D ( 'NONE', #329, #206, #78 ) ;
#39 = DIRECTION ( 'NONE',  ( -1.000000000000000000, 0.0000000000000000000, 0.0000000000000000000 ) ) ;
#40 = CONICAL_SURFACE ( 'NONE', #262, 0.1869999999999999996, 0.7853981633974500554 ) ;
#41 = ADVANCED_FACE ( 'NONE', ( #359, #239 ), #120, .T. ) ;
#42 = DIRECTION ( 'NONE',  ( 0.0000000000000000000, 0.0000000000000000000, 1.000000000000000000 ) ) ;
#43 = ADVANCED_FACE ( 'NONE', ( #21, #302 ), #180, .T. ) ;
#44 = VECTOR ( 'NONE', #372, 39.37007874015748143 ) ;
#45 =( GEOMETRIC_REPRESENTATION_CONTEXT ( 3 ) GLOBAL_UNCERTAINTY_ASSIGNED_CONTEXT ( ( #24 ) ) GLOBAL_UNIT_ASSIGNED_CONTEXT ( ( #119, #149, #179 ) ) REPRESENTATION_CONTEXT ( 'NONE', 'WORKASPACE' ) );
#46 = LINE ( 'NONE', #324, #154 ) ;
#47 = VECTOR ( 'NONE', #274, 39.37007874015748143 ) ;
#48 = DIRECTION ( 'NONE',  ( 0.0000000000000000000, 1.000000000000000000, 0.0000000000000000000 ) ) ;
#49 = AXIS2_PLACEMENT_3D ( 'NONE', #51, #48, #325 ) ;
#50 =( CONVERSION_BASED_UNIT ( 'INCH', #176 ) LENGTH_UNIT ( ) NAMED_UNIT ( #102 ) );
#51 = CARTESIAN_POINT ( 'NONE',  ( -1.544256863000514679, -0.007499999999999999722, -0.6561463301718688523 ) ) ;
#52 = PLANE ( 'NONE',  #38 ) ;
#53 = CARTESIAN_POINT ( 'NONE',  ( -1.544256863000514679, 0.2500000000000000000, -0.6561463301718688523 ) ) ;
#54 = ADVANCED_FACE ( 'NONE', ( #80, #358 ), #383, .T. ) ;
#55 = EDGE_CURVE ( 'NONE', #163, #84, #266, .T. ) ;
#56 = DIRECTION ( 'NONE',  ( 0.0000000000000000000, 1.000000000000000000, -0.0000000000000000000 ) ) ;
#57 = ORIENTED_EDGE ( 'NONE', *, *, #11, .F. ) ;
#58 = VERTEX_POINT ( 'NONE', #298 ) ;
#59 = VERTEX_POINT ( 'NONE', #337 ) ;
#60 = EDGE_LOOP ( 'NONE', ( #184 ) ) ;
#61 = AXIS2_PLACEMENT_3D ( 'NONE', #8, #289, #168 ) ;
#62 = DIRECTION ( 'NONE',  ( 0.0000000000000000000, -1.000000000000000000, 0.0000000000000000000 ) ) ;
#63 = ORIENTED_EDGE ( 'NONE', *, *, #271, .F. ) ;
#64 = FACE_BOUND ( 'NONE', #136, .T. ) ;
#65 = ORIENTED_EDGE ( 'NONE', *, *, #230, .F. ) ;
#66 = MECHANICAL_DESIGN_GEOMETRIC_PRESENTATION_REPRESENTATION (  '', ( #364 ), #175 ) ;
#67 = CARTESIAN_POINT ( 'NONE',  ( -1.760763213946624051, -0.9974999999999999423, -0.6561463301718688523 ) ) ;
#68 = EDGE_LOOP ( 'NONE', ( #92 ) ) ;
#69 = CARTESIAN_POINT ( 'NONE',  ( -1.760763213946624051, -0.007499999999999999722, -0.6561463301718688523 ) ) ;
#70 = DIRECTION ( 'NONE',  ( -0.5000000000000009992, 0.0000000000000000000, 0.8660254037844380415 ) ) ;
#71 = ADVANCED_FACE ( 'NONE', ( #178 ), #52, .T. ) ;
#72 = DIRECTION ( 'NONE',  ( 0.5000000000000000000, 0.0000000000000000000, 0.8660254037844385966 ) ) ;
#73 = AXIS2_PLACEMENT_3D ( 'NONE', #256, #138, #9 ) ;
#74 = LINE ( 'NONE', #354, #265 ) ;
#75 = CARTESIAN_POINT ( 'NONE',  ( -1.327750512054404863, -1.004999999999999893, -0.6561463301718688523 ) ) ;
#76 =( NAMED_UNIT ( * ) PLANE_ANGLE_UNIT ( ) SI_UNIT ( $, .RADIAN. ) );
#77 = SURFACE_STYLE_FILL_AREA ( #205 ) ;
#78 = DIRECTION ( 'NONE',  ( -0.5000000000000008882, 0.0000000000000000000, 0.8660254037844380415 ) ) ;
#79 = EDGE_CURVE ( 'NONE', #59, #59, #261, .T. ) ;
#80 = FACE_BOUND ( 'NONE', #25, .T. ) ;
#81 = ADVANCED_FACE ( 'NONE', ( #384 ), #263, .T. ) ;
#82 = CARTESIAN_POINT ( 'NONE',  ( -1.436003687527459771, -0.9974999999999999423, -0.4686463301718689078 ) ) ;
#83 = PRODUCT_DEFINITION_CONTEXT ( 'detailed design', #33, 'design' ) ;
#84 = VERTEX_POINT ( 'NONE', #177 ) ;
#85 = ORIENTED_EDGE ( 'NONE', *, *, #11, .T. ) ;
#86 = AXIS2_PLACEMENT_3D ( 'NONE', #357, #234, #112 ) ;
#87 = CARTESIAN_POINT ( 'NONE',  ( -1.544256863000514679, -0.007499999999999999722, -0.4691463301718687418 ) ) ;
#88 = AXIS2_PLACEMENT_3D ( 'NONE', #188, #62, #339 ) ;
#89 = ORIENTED_EDGE ( 'NONE', *, *, #344, .T. ) ;
#90 = CIRCLE ( 'NONE', #322, 0.1869999999999999440 ) ;
#91 = PLANE ( 'NONE',  #321 ) ;
#92 = ORIENTED_EDGE ( 'NONE', *, *, #187, .F. ) ;
#93 = VECTOR ( 'NONE', #313, 39.37007874015748143 ) ;
#94 = DIRECTION ( 'NONE',  ( 0.0000000000000000000, 1.000000000000000000, 0.0000000000000000000 ) ) ;
#95 = PRODUCT_DEFINITION_FORMATION_WITH_SPECIFIED_SOURCE ( 'ANY', '', #111, .NOT_KNOWN. ) ;
#96 = ORIENTED_EDGE ( 'NONE', *, *, #161, .T. ) ;
#97 = CARTESIAN_POINT ( 'NONE',  ( -1.436003687527459549, -1.004999999999999893, -0.8436463301718686303 ) ) ;
#98 = AXIS2_PLACEMENT_3D ( 'NONE', #182, #56, #332 ) ;
#99 = ORIENTED_EDGE ( 'NONE', *, *, #189, .F. ) ;
#100 = VECTOR ( 'NONE', #382, 39.37007874015748143 ) ;
#101 = CARTESIAN_POINT ( 'NONE',  ( -1.652510038473569143, -0.007499999999999988447, -0.8436463301718686303 ) ) ;
#102 = DIMENSIONAL_EXPONENTS ( 1.000000000000000000, 0.0000000000000000000, 0.0000000000000000000, 0.0000000000000000000, 0.0000000000000000000, 0.0000000000000000000, 0.0000000000000000000 ) ;
#103 = ORIENTED_EDGE ( 'NONE', *, *, #299, .T. ) ;
#104 = CARTESIAN_POINT ( 'NONE',  ( -1.652510038473569143, -1.004999999999999893, -0.8436463301718686303 ) ) ;
#105 = DIRECTION ( 'NONE',  ( 0.0000000000000000000, 1.000000000000000000, 0.0000000000000000000 ) ) ;
#106 = CARTESIAN_POINT ( 'NONE',  ( -1.652510038473569143, -0.9974999999999999423, -0.8436463301718686303 ) ) ;
#107 = CARTESIAN_POINT ( 'NONE',  ( -1.652510038473569365, -1.004999999999999893, -0.4686463301718689078 ) ) ;
#108 =( NAMED_UNIT ( * ) SI_UNIT ( $, .STERADIAN. ) SOLID_ANGLE_UNIT ( ) );
#109 = MANIFOLD_SOLID_BREP ( 'Cut-Extrude3', #221 ) ;
#110 = PRESENTATION_STYLE_ASSIGNMENT (( #233 ) ) ;
#111 = PRODUCT ( 'am-0152 Toughbox Internal Hex Shaft', 'am-0152 Toughbox Internal Hex Shaft', '', ( #264 ) ) ;
#112 = DIRECTION ( 'NONE',  ( 0.0000000000000000000, 0.0000000000000000000, -1.000000000000000000 ) ) ;
#113 = DIRECTION ( 'NONE',  ( 0.0000000000000000000, 0.0000000000000000000, 1.000000000000000000 ) ) ;
#114 = EDGE_CURVE ( 'NONE', #167, #338, #15, .T. ) ;
#115 = CIRCLE ( 'NONE', #291, 0.1870000000000000828 ) ;
#116 = PRESENTATION_LAYER_ASSIGNMENT (  '', '', ( #126 ) ) ;
#117 = EDGE_CURVE ( 'NONE', #215, #215, #224, .T. ) ;
#118 = DIRECTION ( 'NONE',  ( 0.0000000000000000000, -1.000000000000000000, 0.0000000000000000000 ) ) ;
#119 =( CONVERSION_BASED_UNIT ( 'INCH', #237 ) LENGTH_UNIT ( ) NAMED_UNIT ( #350 ) );
#120 = CYLINDRICAL_SURFACE ( 'NONE', #270, 0.1869999999999999996 ) ;
#121 = LINE ( 'NONE', #391, #47 ) ;
#122 = ORIENTED_EDGE ( 'NONE', *, *, #117, .T. ) ;
#123 = VERTEX_POINT ( 'NONE', #393 ) ;
#124 = ORIENTED_EDGE ( 'NONE', *, *, #55, .T. ) ;
#125 = DIRECTION ( 'NONE',  ( 0.0000000000000000000, -0.0000000000000000000, 1.000000000000000000 ) ) ;
#126 = STYLED_ITEM ( 'NONE', ( #181 ), #209 ) ;
#127 = ORIENTED_EDGE ( 'NONE', *, *, #161, .F. ) ;
#128 = VECTOR ( 'NONE', #70, 39.37007874015748143 ) ;
#129 = PLANE ( 'NONE',  #150 ) ;
#130 = EDGE_CURVE ( 'NONE', #242, #27, #204, .T. ) ;
#131 = EDGE_LOOP ( 'NONE', ( #250, #254, #394, #190 ) ) ;
#132 = EDGE_CURVE ( 'NONE', #167, #360, #232, .T. ) ;
#133 = CARTESIAN_POINT ( 'NONE',  ( -1.327750512054404863, -0.007499999999999999722, -0.6561463301718688523 ) ) ;
#134 = EDGE_LOOP ( 'NONE', ( #373, #277, #29, #315 ) ) ;
#135 = DIRECTION ( 'NONE',  ( 0.5000000000000008882, 0.0000000000000000000, -0.8660254037844380415 ) ) ;
#136 = EDGE_LOOP ( 'NONE', ( #368 ) ) ;
#137 = PLANE ( 'NONE',  #61 ) ;
#138 = DIRECTION ( 'NONE',  ( -0.0000000000000000000, -1.000000000000000000, -0.0000000000000000000 ) ) ;
#139 = DIRECTION ( 'NONE',  ( 0.0000000000000000000, -1.000000000000000000, 0.0000000000000000000 ) ) ;
#140 = PLANE ( 'NONE',  #326 ) ;
#141 =( LENGTH_UNIT ( ) NAMED_UNIT ( * ) SI_UNIT ( $, .METRE. ) );
#142 = COLOUR_RGB ( '',0.8980392156862745390, 0.9176470588235293713, 0.9294117647058823817 ) ;
#143 = CARTESIAN_POINT ( 'NONE',  ( -1.436003687527459771, -1.004999999999999893, -0.4686463301718689078 ) ) ;
#144 = AXIS2_PLACEMENT_3D ( 'NONE', #28, #309, #185 ) ;
#145 = APPLICATION_PROTOCOL_DEFINITION ( 'draft international standard', 'automotive_design', 1998, #33 ) ;
#146 = ADVANCED_FACE ( 'NONE', ( #260 ), #140, .T. ) ;
#147 = CIRCLE ( 'NONE', #367, 0.1869999999999999996 ) ;
#148 = CARTESIAN_POINT ( 'NONE',  ( -1.652510038473569143, -0.9974999999999999423, -0.8436463301718686303 ) ) ;
#149 =( NAMED_UNIT ( * ) PLANE_ANGLE_UNIT ( ) SI_UNIT ( $, .RADIAN. ) );
#150 = AXIS2_PLACEMENT_3D ( 'NONE', #2, #283, #160 ) ;
#151 = DIRECTION ( 'NONE',  ( 0.0000000000000000000, 0.0000000000000000000, 1.000000000000000000 ) ) ;
#152 = SURFACE_STYLE_FILL_AREA ( #273 ) ;
#153 = FACE_BOUND ( 'NONE', #345, .T. ) ;
#154 = VECTOR ( 'NONE', #202, 39.37007874015748143 ) ;
#155 = ORIENTED_EDGE ( 'NONE', *, *, #344, .F. ) ;
#156 = CARTESIAN_POINT ( 'NONE',  ( -1.544256863000514679, -1.254999999999999893, -0.4891463301718689261 ) ) ;
#157 = EDGE_LOOP ( 'NONE', ( #85, #127, #252, #155 ) ) ;
#158 = PLANE ( 'NONE',  #144 ) ;
#159 = ORIENTED_EDGE ( 'NONE', *, *, #269, .T. ) ;
#160 = DIRECTION ( 'NONE',  ( -1.000000000000000000, 0.0000000000000000000, -0.0000000000000000000 ) ) ;
#161 = EDGE_CURVE ( 'NONE', #360, #58, #46, .T. ) ;
#162 = EDGE_CURVE ( 'NONE', #242, #34, #74, .T. ) ;
#163 = VERTEX_POINT ( 'NONE', #106 ) ;
#164 = LINE ( 'NONE', #32, #93 ) ;
#165 = ORIENTED_EDGE ( 'NONE', *, *, #117, .F. ) ;
#166 = CARTESIAN_POINT ( 'NONE',  ( -1.760763213946624051, -1.004999999999999893, -0.6561463301718688523 ) ) ;
#167 = VERTEX_POINT ( 'NONE', #379 ) ;
#168 = DIRECTION ( 'NONE',  ( 1.000000000000000000, 0.0000000000000000000, -0.0000000000000000000 ) ) ;
#169 = VECTOR ( 'NONE', #19, 39.37007874015748143 ) ;
#170 = CARTESIAN_POINT ( 'NONE',  ( -1.436003687527459549, -0.007499999999999999722, -0.8436463301718686303 ) ) ;
#171 = DIRECTION ( 'NONE',  ( 0.0000000000000000000, 1.000000000000000000, 0.0000000000000000000 ) ) ;
#172 = VECTOR ( 'NONE', #135, 39.37007874015748143 ) ;
#173 = DIRECTION ( 'NONE',  ( -0.5000000000000000000, 0.0000000000000000000, -0.8660254037844385966 ) ) ;
#174 = DIRECTION ( 'NONE',  ( -0.4999999999999998335, 0.0000000000000000000, -0.8660254037844385966 ) ) ;
#175 =( GEOMETRIC_REPRESENTATION_CONTEXT ( 3 ) GLOBAL_UNCERTAINTY_ASSIGNED_CONTEXT ( ( #293 ) ) GLOBAL_UNIT_ASSIGNED_CONTEXT ( ( #50, #76, #108 ) ) REPRESENTATION_CONTEXT ( 'NONE', 'WORKASPACE' ) );
#176 = LENGTH_MEASURE_WITH_UNIT ( LENGTH_MEASURE( 0.02539999999999999897 ), #141 );
#177 = CARTESIAN_POINT ( 'NONE',  ( -1.436003687527459549, -0.9974999999999999423, -0.8436463301718686303 ) ) ;
#178 = FACE_OUTER_BOUND ( 'NONE', #134, .T. ) ;
#179 =( NAMED_UNIT ( * ) SI_UNIT ( $, .STERADIAN. ) SOLID_ANGLE_UNIT ( ) );
#180 = CYLINDRICAL_SURFACE ( 'NONE', #335, 0.1869999999999999440 ) ;
#181 = PRESENTATION_STYLE_ASSIGNMENT (( #303 ) ) ;
#182 = CARTESIAN_POINT ( 'NONE',  ( -1.760763213946624051, -0.007499999999999999722, -0.6561463301718688523 ) ) ;
#183 = ORIENTED_EDGE ( 'NONE', *, *, #269, .F. ) ;
#184 = ORIENTED_EDGE ( 'NONE', *, *, #229, .T. ) ;
#185 = DIRECTION ( 'NONE',  ( 0.0000000000000000000, -0.0000000000000000000, -1.000000000000000000 ) ) ;
#186 = EDGE_LOOP ( 'NONE', ( #288 ) ) ;
#187 = EDGE_CURVE ( 'NONE', #363, #363, #90, .T. ) ;
#188 = CARTESIAN_POINT ( 'NONE',  ( -1.544256863000514679, 0.2500000000000000000, -0.6561463301718688523 ) ) ;
#189 = EDGE_CURVE ( 'NONE', #123, #123, #147, .T. ) ;
#190 = ORIENTED_EDGE ( 'NONE', *, *, #201, .F. ) ;
#191 = CARTESIAN_POINT ( 'NONE',  ( -1.652510038473569365, -0.007499999999999999722, -0.4686463301718689078 ) ) ;
#192 = ORIENTED_EDGE ( 'NONE', *, *, #299, .F. ) ;
#193 = LINE ( 'NONE', #67, #218 ) ;
#194 = ORIENTED_EDGE ( 'NONE', *, *, #114, .F. ) ;
#195 = LINE ( 'NONE', #69, #340 ) ;
#196 = DIMENSIONAL_EXPONENTS ( 1.000000000000000000, 0.0000000000000000000, 0.0000000000000000000, 0.0000000000000000000, 0.0000000000000000000, 0.0000000000000000000, 0.0000000000000000000 ) ;
#197 = CARTESIAN_POINT ( 'NONE',  ( -1.652510038473569143, -0.007499999999999999722, -0.8436463301718686303 ) ) ;
#198 = PRESENTATION_LAYER_ASSIGNMENT (  '', '', ( #364 ) ) ;
#199 = CARTESIAN_POINT ( 'NONE',  ( -1.436003687527459549, -0.9974999999999999423, -0.8436463301718686303 ) ) ;
#200 = VECTOR ( 'NONE', #72, 39.37007874015748854 ) ;
#201 = EDGE_CURVE ( 'NONE', #84, #242, #323, .T. ) ;
#202 = DIRECTION ( 'NONE',  ( 1.000000000000000000, 0.0000000000000000000, 0.0000000000000000000 ) ) ;
#203 = EDGE_CURVE ( 'NONE', #338, #222, #351, .T. ) ;
#204 = LINE ( 'NONE', #75, #276 ) ;
#205 = FILL_AREA_STYLE ('',( #327 ) ) ;
#206 = DIRECTION ( 'NONE',  ( -0.8660254037844381525, 0.0000000000000000000, -0.5000000000000009992 ) ) ;
#207 = DIRECTION ( 'NONE',  ( 0.0000000000000000000, 0.0000000000000000000, -1.000000000000000000 ) ) ;
#208 =( LENGTH_UNIT ( ) NAMED_UNIT ( * ) SI_UNIT ( $, .METRE. ) );
#209 = ADVANCED_BREP_SHAPE_REPRESENTATION ( 'am-0152 Toughbox Internal Hex Shaft', ( #109, #268 ), #246 ) ;
#210 = CARTESIAN_POINT ( 'NONE',  ( -1.327750512054404863, -0.007499999999999999722, -0.6561463301718688523 ) ) ;
#211 = APPLICATION_PROTOCOL_DEFINITION ( 'draft international standard', 'automotive_design', 1998, #14 ) ;
#212 = EDGE_LOOP ( 'NONE', ( #5, #63, #279, #194 ) ) ;
#213 = AXIS2_PLACEMENT_3D ( 'NONE', #236, #118, #387 ) ;
#214 = EDGE_LOOP ( 'NONE', ( #310, #192, #57, #365 ) ) ;
#215 = VERTEX_POINT ( 'NONE', #87 ) ;
#216 = ORIENTED_EDGE ( 'NONE', *, *, #271, .T. ) ;
#217 = FACE_OUTER_BOUND ( 'NONE', #60, .T. ) ;
#218 = VECTOR ( 'NONE', #346, 39.37007874015748143 ) ;
#219 = EDGE_LOOP ( 'NONE', ( #122 ) ) ;
#220 = CARTESIAN_POINT ( 'NONE',  ( -1.544256863000514679, -1.234999999999999876, -0.6561463301718688523 ) ) ;
#221 = CLOSED_SHELL ( 'NONE', ( #301, #258, #81, #146, #380, #71, #397, #396, #369, #41, #12, #381, #54, #43 ) ) ;
#222 = VERTEX_POINT ( 'NONE', #378 ) ;
#223 = LINE ( 'NONE', #97, #44 ) ;
#224 = CIRCLE ( 'NONE', #49, 0.1870000000000000828 ) ;
#225 = ORIENTED_EDGE ( 'NONE', *, *, #187, .T. ) ;
#226 = CARTESIAN_POINT ( 'NONE',  ( -1.436003687527459549, -0.007499999999999999722, -0.8436463301718686303 ) ) ;
#227 = LINE ( 'NONE', #104, #353 ) ;
#228 = CARTESIAN_POINT ( 'NONE',  ( -1.760763213946624051, -1.004999999999999893, -0.6561463301718688523 ) ) ;
#229 = EDGE_CURVE ( 'NONE', #278, #278, #247, .T. ) ;
#230 = EDGE_CURVE ( 'NONE', #284, #286, #290, .T. ) ;
#231 = DIRECTION ( 'NONE',  ( -0.5000000000000008882, 0.0000000000000000000, 0.8660254037844380415 ) ) ;
#232 = LINE ( 'NONE', #107, #100 ) ;
#233 = SURFACE_STYLE_USAGE ( .BOTH. , #356 ) ;
#234 = DIRECTION ( 'NONE',  ( -0.0000000000000000000, 1.000000000000000000, -0.0000000000000000000 ) ) ;
#235 = CARTESIAN_POINT ( 'NONE',  ( 0.0000000000000000000, 0.0000000000000000000, 0.0000000000000000000 ) ) ;
#236 = CARTESIAN_POINT ( 'NONE',  ( -1.544256863000514679, 0.2300000000000000100, -0.6561463301718688523 ) ) ;
#237 = LENGTH_MEASURE_WITH_UNIT ( LENGTH_MEASURE( 0.02539999999999999897 ), #208 );
#238 = EDGE_CURVE ( 'NONE', #286, #222, #320, .T. ) ;
#239 = FACE_OUTER_BOUND ( 'NONE', #1, .T. ) ;
#240 = CARTESIAN_POINT ( 'NONE',  ( -1.544256863000514679, -0.9974999999999999423, -0.6561463301718688523 ) ) ;
#241 =( CONVERSION_BASED_UNIT ( 'INCH', #361 ) LENGTH_UNIT ( ) NAMED_UNIT ( #196 ) );
#242 = VERTEX_POINT ( 'NONE', #349 ) ;
#243 = CARTESIAN_POINT ( 'NONE',  ( -1.544256863000514679, 0.2300000000000000100, -0.8431463301718687964 ) ) ;
#244 = ORIENTED_EDGE ( 'NONE', *, *, #330, .T. ) ;
#245 = DIRECTION ( 'NONE',  ( 0.0000000000000000000, 1.000000000000000000, 0.0000000000000000000 ) ) ;
#246 =( GEOMETRIC_REPRESENTATION_CONTEXT ( 3 ) GLOBAL_UNCERTAINTY_ASSIGNED_CONTEXT ( ( #20 ) ) GLOBAL_UNIT_ASSIGNED_CONTEXT ( ( #241, #275, #305 ) ) REPRESENTATION_CONTEXT ( 'NONE', 'WORKASPACE' ) );
#247 = CIRCLE ( 'NONE', #73, 0.1669999999999998985 ) ;
#248 = ORIENTED_EDGE ( 'NONE', *, *, #55, .F. ) ;
#249 = FACE_OUTER_BOUND ( 'NONE', #3, .T. ) ;
#250 = ORIENTED_EDGE ( 'NONE', *, *, #328, .T. ) ;
#251 = LINE ( 'NONE', #133, #267 ) ;
#252 = ORIENTED_EDGE ( 'NONE', *, *, #132, .F. ) ;
#253 = CARTESIAN_POINT ( 'NONE',  ( -1.436003687527459771, -0.007499999999999999722, -0.4686463301718689078 ) ) ;
#254 = ORIENTED_EDGE ( 'NONE', *, *, #330, .F. ) ;
#255 = FACE_OUTER_BOUND ( 'NONE', #157, .T. ) ;
#256 = CARTESIAN_POINT ( 'NONE',  ( -1.544256863000514679, -1.254999999999999893, -0.6561463301718688523 ) ) ;
#257 = EDGE_CURVE ( 'NONE', #163, #286, #227, .T. ) ;
#258 = ADVANCED_FACE ( 'NONE', ( #255 ), #137, .T. ) ;
#259 = CARTESIAN_POINT ( 'NONE',  ( -1.544256863000514679, 0.2300000000000000100, -0.6561463301718688523 ) ) ;
#260 = FACE_OUTER_BOUND ( 'NONE', #131, .T. ) ;
#261 = CIRCLE ( 'NONE', #86, 0.1669999999999998985 ) ;
#262 = AXIS2_PLACEMENT_3D ( 'NONE', #220, #94, #370 ) ;
#263 = PLANE ( 'NONE',  #319 ) ;
#264 = PRODUCT_CONTEXT ( 'NONE', #14, 'mechanical' ) ;
#265 = VECTOR ( 'NONE', #231, 39.37007874015748143 ) ;
#266 = LINE ( 'NONE', #148, #169 ) ;
#267 = VECTOR ( 'NONE', #4, 39.37007874015748854 ) ;
#268 = AXIS2_PLACEMENT_3D ( 'NONE', #235, #113, #385 ) ;
#269 = EDGE_CURVE ( 'NONE', #26, #26, #115, .T. ) ;
#270 = AXIS2_PLACEMENT_3D ( 'NONE', #388, #272, #151 ) ;
#271 = EDGE_CURVE ( 'NONE', #222, #360, #195, .T. ) ;
#272 = DIRECTION ( 'NONE',  ( 0.0000000000000000000, 1.000000000000000000, 0.0000000000000000000 ) ) ;
#273 = FILL_AREA_STYLE ('',( #389 ) ) ;
#274 = DIRECTION ( 'NONE',  ( 0.0000000000000000000, 1.000000000000000000, 0.0000000000000000000 ) ) ;
#275 =( NAMED_UNIT ( * ) PLANE_ANGLE_UNIT ( ) SI_UNIT ( $, .RADIAN. ) );
#276 = VECTOR ( 'NONE', #355, 39.37007874015748143 ) ;
#277 = ORIENTED_EDGE ( 'NONE', *, *, #238, .F. ) ;
#278 = VERTEX_POINT ( 'NONE', #156 ) ;
#279 = ORIENTED_EDGE ( 'NONE', *, *, #203, .F. ) ;
#280 = FACE_OUTER_BOUND ( 'NONE', #7, .T. ) ;
#281 = PRODUCT_DEFINITION ( 'UNKNOWN', '', #95, #83 ) ;
#282 = EDGE_LOOP ( 'NONE', ( #99 ) ) ;
#283 = DIRECTION ( 'NONE',  ( 0.0000000000000000000, 0.0000000000000000000, -1.000000000000000000 ) ) ;
#284 = VERTEX_POINT ( 'NONE', #226 ) ;
#285 = CARTESIAN_POINT ( 'NONE',  ( -1.760763213946624051, -0.9974999999999999423, -0.6561463301718688523 ) ) ;
#286 = VERTEX_POINT ( 'NONE', #101 ) ;
#287 = PLANE ( 'NONE',  #386 ) ;
#288 = ORIENTED_EDGE ( 'NONE', *, *, #79, .T. ) ;
#289 = DIRECTION ( 'NONE',  ( 0.0000000000000000000, 0.0000000000000000000, 1.000000000000000000 ) ) ;
#290 = LINE ( 'NONE', #170, #300 ) ;
#291 = AXIS2_PLACEMENT_3D ( 'NONE', #240, #37, #318 ) ;
#292 = CARTESIAN_POINT ( 'NONE',  ( -1.544256863000514679, -1.234999999999999876, -0.6561463301718688523 ) ) ;
#293 = UNCERTAINTY_MEASURE_WITH_UNIT (LENGTH_MEASURE( 1.000000000000000082E-05 ), #50, 'distance_accuracy_value', 'NONE');
#294 = DIRECTION ( 'NONE',  ( 0.8660254037844387076, 0.0000000000000000000, -0.5000000000000001110 ) ) ;
#295 = CARTESIAN_POINT ( 'NONE',  ( -1.652510038473569365, -0.9974999999999999423, -0.4686463301718689078 ) ) ;
#296 = DIRECTION ( 'NONE',  ( 0.5000000000000007772, 0.0000000000000000000, -0.8660254037844380415 ) ) ;
#297 = COLOUR_RGB ( '',0.8980392156862745390, 0.9176470588235293713, 0.9294117647058823817 ) ;
#298 = CARTESIAN_POINT ( 'NONE',  ( -1.436003687527459771, -0.007499999999999999722, -0.4686463301718689078 ) ) ;
#299 = EDGE_CURVE ( 'NONE', #58, #27, #374, .T. ) ;
#300 = VECTOR ( 'NONE', #39, 39.37007874015748143 ) ;
#301 = ADVANCED_FACE ( 'NONE', ( #6 ), #287, .T. ) ;
#302 = FACE_OUTER_BOUND ( 'NONE', #219, .T. ) ;
#303 = SURFACE_STYLE_USAGE ( .BOTH. , #22 ) ;
#304 = PLANE ( 'NONE',  #98 ) ;
#305 =( NAMED_UNIT ( * ) SI_UNIT ( $, .STERADIAN. ) SOLID_ANGLE_UNIT ( ) );
#306 = ORIENTED_EDGE ( 'NONE', *, *, #238, .T. ) ;
#307 = CARTESIAN_POINT ( 'NONE',  ( -1.544256863000514679, -0.9974999999999999423, -0.8431463301718689074 ) ) ;
#308 = ORIENTED_EDGE ( 'NONE', *, *, #79, .F. ) ;
#309 = DIRECTION ( 'NONE',  ( 0.0000000000000000000, -1.000000000000000000, 0.0000000000000000000 ) ) ;
#310 = ORIENTED_EDGE ( 'NONE', *, *, #130, .T. ) ;
#311 = PLANE ( 'NONE',  #88 ) ;
#312 = ORIENTED_EDGE ( 'NONE', *, *, #201, .T. ) ;
#313 = DIRECTION ( 'NONE',  ( -1.000000000000000000, 0.0000000000000000000, 0.0000000000000000000 ) ) ;
#314 = EDGE_CURVE ( 'NONE', #338, #163, #193, .T. ) ;
#315 = ORIENTED_EDGE ( 'NONE', *, *, #314, .F. ) ;
#316 = DIRECTION ( 'NONE',  ( 0.4999999999999998335, 0.0000000000000000000, 0.8660254037844385966 ) ) ;
#317 = ORIENTED_EDGE ( 'NONE', *, *, #257, .T. ) ;
#318 = DIRECTION ( 'NONE',  ( 0.0000000000000000000, 0.0000000000000000000, -1.000000000000000000 ) ) ;
#319 = AXIS2_PLACEMENT_3D ( 'NONE', #143, #16, #296 ) ;
#320 = LINE ( 'NONE', #197, #128 ) ;
#321 = AXIS2_PLACEMENT_3D ( 'NONE', #366, #245, #125 ) ;
#322 = AXIS2_PLACEMENT_3D ( 'NONE', #259, #139, #10 ) ;
#323 = LINE ( 'NONE', #199, #200 ) ;
#324 = CARTESIAN_POINT ( 'NONE',  ( -1.652510038473569365, -0.007499999999999999722, -0.4686463301718689078 ) ) ;
#325 = DIRECTION ( 'NONE',  ( 0.0000000000000000000, 0.0000000000000000000, 1.000000000000000000 ) ) ;
#326 = AXIS2_PLACEMENT_3D ( 'NONE', #13, #294, #173 ) ;
#327 = FILL_AREA_STYLE_COLOUR ( '', #142 ) ;
#328 = EDGE_CURVE ( 'NONE', #84, #284, #223, .T. ) ;
#329 = CARTESIAN_POINT ( 'NONE',  ( -1.652510038473569143, -1.004999999999999893, -0.8436463301718686303 ) ) ;
#330 = EDGE_CURVE ( 'NONE', #27, #284, #251, .T. ) ;
#331 = DIRECTION ( 'NONE',  ( 0.0000000000000000000, -1.000000000000000000, 0.0000000000000000000 ) ) ;
#332 = DIRECTION ( 'NONE',  ( 0.0000000000000000000, 0.0000000000000000000, 1.000000000000000000 ) ) ;
#333 = EDGE_LOOP ( 'NONE', ( #392 ) ) ;
#334 =( LENGTH_UNIT ( ) NAMED_UNIT ( * ) SI_UNIT ( $, .METRE. ) );
#335 = AXIS2_PLACEMENT_3D ( 'NONE', #53, #331, #207 ) ;
#336 = ORIENTED_EDGE ( 'NONE', *, *, #328, .F. ) ;
#337 = CARTESIAN_POINT ( 'NONE',  ( -1.544256863000514679, 0.2500000000000000000, -0.8231463301718686676 ) ) ;
#338 = VERTEX_POINT ( 'NONE', #285 ) ;
#339 = DIRECTION ( 'NONE',  ( 0.0000000000000000000, -0.0000000000000000000, -1.000000000000000000 ) ) ;
#340 = VECTOR ( 'NONE', #348, 39.37007874015748854 ) ;
#341 = MECHANICAL_DESIGN_GEOMETRIC_PRESENTATION_REPRESENTATION (  '', ( #126 ), #45 ) ;
#342 = EDGE_LOOP ( 'NONE', ( #306, #216, #96, #103, #244, #31 ) ) ;
#343 = FACE_OUTER_BOUND ( 'NONE', #282, .T. ) ;
#344 = EDGE_CURVE ( 'NONE', #34, #167, #164, .T. ) ;
#345 = EDGE_LOOP ( 'NONE', ( #165 ) ) ;
#346 = DIRECTION ( 'NONE',  ( 0.5000000000000009992, 0.0000000000000000000, -0.8660254037844380415 ) ) ;
#347 = EDGE_LOOP ( 'NONE', ( #183 ) ) ;
#348 = DIRECTION ( 'NONE',  ( 0.4999999999999998335, 0.0000000000000000000, 0.8660254037844385966 ) ) ;
#349 = CARTESIAN_POINT ( 'NONE',  ( -1.327750512054404863, -0.9974999999999999423, -0.6561463301718688523 ) ) ;
#350 = DIMENSIONAL_EXPONENTS ( 1.000000000000000000, 0.0000000000000000000, 0.0000000000000000000, 0.0000000000000000000, 0.0000000000000000000, 0.0000000000000000000, 0.0000000000000000000 ) ;
#351 = LINE ( 'NONE', #228, #18 ) ;
#352 = PRODUCT_DEFINITION_SHAPE ( 'NONE', 'NONE',  #281 ) ;
#353 = VECTOR ( 'NONE', #376, 39.37007874015748143 ) ;
#354 = CARTESIAN_POINT ( 'NONE',  ( -1.327750512054404863, -0.9974999999999999423, -0.6561463301718688523 ) ) ;
#355 = DIRECTION ( 'NONE',  ( 0.0000000000000000000, 1.000000000000000000, 0.0000000000000000000 ) ) ;
#356 = SURFACE_SIDE_STYLE ('',( #77 ) ) ;
#357 = CARTESIAN_POINT ( 'NONE',  ( -1.544256863000514679, 0.2500000000000000000, -0.6561463301718688523 ) ) ;
#358 = FACE_OUTER_BOUND ( 'NONE', #68, .T. ) ;
#359 = FACE_OUTER_BOUND ( 'NONE', #333, .T. ) ;
#360 = VERTEX_POINT ( 'NONE', #191 ) ;
#361 = LENGTH_MEASURE_WITH_UNIT ( LENGTH_MEASURE( 0.02539999999999999897 ), #334 );
#362 = EDGE_LOOP ( 'NONE', ( #225 ) ) ;
#363 = VERTEX_POINT ( 'NONE', #243 ) ;
#364 = STYLED_ITEM ( 'NONE', ( #110 ), #109 ) ;
#365 = ORIENTED_EDGE ( 'NONE', *, *, #162, .F. ) ;
#366 = CARTESIAN_POINT ( 'NONE',  ( -1.544256863000514679, -1.254999999999999893, -0.6561463301718688523 ) ) ;
#367 = AXIS2_PLACEMENT_3D ( 'NONE', #292, #171, #42 ) ;
#368 = ORIENTED_EDGE ( 'NONE', *, *, #229, .F. ) ;
#369 = ADVANCED_FACE ( 'NONE', ( #64, #343 ), #40, .T. ) ;
#370 = DIRECTION ( 'NONE',  ( 0.0000000000000000000, 0.0000000000000000000, 1.000000000000000000 ) ) ;
#371 = ORIENTED_EDGE ( 'NONE', *, *, #114, .T. ) ;
#372 = DIRECTION ( 'NONE',  ( 0.0000000000000000000, 1.000000000000000000, 0.0000000000000000000 ) ) ;
#373 = ORIENTED_EDGE ( 'NONE', *, *, #203, .T. ) ;
#374 = LINE ( 'NONE', #253, #172 ) ;
#375 = ORIENTED_EDGE ( 'NONE', *, *, #314, .T. ) ;
#376 = DIRECTION ( 'NONE',  ( 0.0000000000000000000, 1.000000000000000000, 0.0000000000000000000 ) ) ;
#377 = PRODUCT_RELATED_PRODUCT_CATEGORY ( 'part', '', ( #111 ) ) ;
#378 = CARTESIAN_POINT ( 'NONE',  ( -1.760763213946624051, -0.007499999999999999722, -0.6561463301718688523 ) ) ;
#379 = CARTESIAN_POINT ( 'NONE',  ( -1.652510038473569365, -0.9974999999999999423, -0.4686463301718689078 ) ) ;
#380 = ADVANCED_FACE ( 'NONE', ( #249 ), #129, .T. ) ;
#381 = ADVANCED_FACE ( 'NONE', ( #30 ), #311, .F. ) ;
#382 = DIRECTION ( 'NONE',  ( 0.0000000000000000000, 1.000000000000000000, 0.0000000000000000000 ) ) ;
#383 = CONICAL_SURFACE ( 'NONE', #213, 0.1869999999999999440, 0.7853981633974517207 ) ;
#384 = FACE_OUTER_BOUND ( 'NONE', #214, .T. ) ;
#385 = DIRECTION ( 'NONE',  ( 1.000000000000000000, 0.0000000000000000000, 0.0000000000000000000 ) ) ;
#386 = AXIS2_PLACEMENT_3D ( 'NONE', #166, #35, #316 ) ;
#387 = DIRECTION ( 'NONE',  ( 0.0000000000000000000, 0.0000000000000000000, -1.000000000000000000 ) ) ;
#388 = CARTESIAN_POINT ( 'NONE',  ( -1.544256863000514679, -1.254999999999999893, -0.6561463301718688523 ) ) ;
#389 = FILL_AREA_STYLE_COLOUR ( '', #297 ) ;
#390 = VECTOR ( 'NONE', #174, 39.37007874015748854 ) ;
#391 = CARTESIAN_POINT ( 'NONE',  ( -1.436003687527459771, -1.004999999999999893, -0.4686463301718689078 ) ) ;
#392 = ORIENTED_EDGE ( 'NONE', *, *, #189, .T. ) ;
#393 = CARTESIAN_POINT ( 'NONE',  ( -1.544256863000514679, -1.234999999999999876, -0.4691463301718687973 ) ) ;
#394 = ORIENTED_EDGE ( 'NONE', *, *, #130, .F. ) ;
#395 = FACE_BOUND ( 'NONE', #347, .T. ) ;
#396 = ADVANCED_FACE ( 'NONE', ( #217 ), #91, .F. ) ;
#397 = ADVANCED_FACE ( 'NONE', ( #395, #280 ), #158, .T. ) ;
ENDSEC;
END-ISO-10303-21;
